LOG IN
REGISTER
HOME
MENU
SONGS
Sara

Bob Dylan

4:4 Key:C

Intro
(harmonica)

e|-10---8--7--8--7-7--7-------------7--------------------|


B|-----------------------10--7--10-----10--10--8---------|


G|-----------------------------------------------9-9-7-9-|


D|-------------------------------------------------------| x2


A|-------------------------------------------------------|


E|-------------------------------------------------------|


e|-10--7-10--7-10--7----7--------7--------------------|


B|--------------------10-10--10-----10--10--8---------|


G|--------------------------------------------9-9-7-9-|


D|----------------------------------------------------|


A|----------------------------------------------------|


E|----------------------------------------------------|


e|-7-10--7-10--7-10--7----7---------------------------|


B|----------------------10-10--10--10-10-10-8---------|


G|--------------------------------------------9-9-7-9-|


D|----------------------------------------------------|


A|----------------------------------------------------|


E|----------------------------------------------------|


Verse 1
I [Em]laid on a dune
I [Am]looked at the sky
When the [D]children were babies
And [Em]played on the beach
You came up to behind me
I saw [Am]you go by
You were al[D]ways so close
and [Em]still within' reach

[Chorus 1]
[G]Sar[Bm]a, oh oh [C]Sara
What[D]ever made you want to ch[C]ange your [Em]mind
[G]Sar[Bm]a, oh oh [C]Sara
So [D]easy to look at, so h[C]ard to de[Em]fine.

Verse 2
I can still see them playin'
With their [Am]pails in the sand
They [D]run to the water
Their [Em]buckets to fill
I can still see the shells
Fallin' [Am]out of their hands
As they f[D]ollow each other
Back [Em]up the hill

Chorus 2
[G]Sar[Bm]a, oh oh [C]Sara
Sw[D]eet virgin angel, sweet l[C]ove of my [Em]life
[G]Sar[Bm]a, oh oh [C]Sara
R[D]adiant jewel, [C]mystical [Em]wife

Verse 3
Sleepin' in the woods
By a [Am]fire in the night
Dr[D]inkin' white rum
In a [Em]Portugal bar
Them playin' leap-frog
And hea[Am]rin' about Snow White
[D]You in the market place
In Savan[Em]na-la-Mar

Chorus 3
[G]Sar[Bm]a, oh oh [C]Sara
It's [D]all so clear, I could [C]never for[Em]get
[G]Sar[Bm]a, oh oh [C]Sara
Lo[D]vin' you is the one thing I'll n[C]ever reg[Em]ret

Verse 4
I can still hear the sounds
Of those Met[Am]hodist bells
I'd tak[D]en the cure
And had j[Em]ust gotten through
Stayin' up for days
In the [Am]Chelsea Hotel
Writin'[D] "Sad-Eyed Lady
Of the Lo[Em]wlands" for you

Chorus 4
[G]Sar[Bm]a, oh oh [C]Sara
Where[D]ver we travel we're n[C]ever ap[Em]art
[G]Sar[Bm]a, oh oh [C]Sara
Be[D]autiful lady, so d[C]ear to my [Em]heart

Verse 5
How did I meet you
I [Am]don't know
A mes[D]senger sent me
In a t[Em]ropical storm
You were there in the winter
Moonl[Am]ight on the snow
And on L[D]ily Pond Lane
When the weat[Em]her was warm

Chorus 5
[G]Sar[Bm]a, oh oh [C]Sara
Sc[D]orpio Sphinx in a c[C]alico d[Em]ress
[G]Sar[Bm]a, oh oh [C]Sara
You m[D]ust forgive me my [C]unworthi[Em]ness

Verse 6
Now the beach is deserted
Ex[Am]cept for some kelp
And a p[D]iece of an old ship
That l[Em]ies on the shore
You always responded
When I need[Am]ed your help
You gim[D]me a map
And a [Em]key to your door

Chorus 6
[G]Sar[Bm]a, oh oh [C]Sara
Gl[D]amorous nymph with an [C]arrow and [Em]bow
[G]Sar[Bm]a, oh oh [C]Sara
Do[D]n't ever leave me, d[C]on't ever [Em]go

Outro
(harmonica, similar to the intro)
(arpegiatte)
Em


Added or amended 11th June 2020
Reproduced soley for
educational purposes


Soprano/Concert/Tenor Ukulele Chords
right handed
Em















Am















D















Chorus1















G















Bm















C

















Download text