LOG IN
REGISTER
HOME
MENU
SONGS
Something

Harrison

4:4 Key:C

A|--0--3--0--1--2--|-3--3--3--3--3--|-2--2--2--2--2--|-1--1--1--1--|-0--0--------|


E|--1--1--1--1--3--|----------------|----------------|-------------|-1--1--3--2--|


C|--0--0--0--2--2--|----------------|----------------|-------------|-0--0-----2--|


G|--2--2--2--3-----|----------------|----------------|-------------|-2--2-----2--|



--- F -F^ F -Bb G -------------------------------------------------- F -F ----D



A|--0--0--0--0--2--|--2--------------------|--------------|-------------------|--0--3--0--1--2--|


E|--2--2--2--2--3--|--3-----------0--------|--------------|--0-----------0----|--1--1--1--1--3--|


C|--2--2--0--0--2--|--2--------0-----0-----|--------------|-----2--0--2-------|--0--0--0--2--2--|


G|--2--2--2--2--0--|--0--0--2-----------2--|--2--1--1--0--|----------------2--|--2--2--2--3-----|



----D-----D7----G-----G----------------------------------------------------------F -F^ F -Bb-G



[C] Something in the way she [Cmaj7] moves
[C7] Attracts me like no other [F] lover [F] [Fmaj7]
[D] Something in the [D7] way she [G] woos me

I [Am] don't want to lose her [Caug] now
You [C] know I believe and [D7] how

[F]| / / / / |[Eb] / / [G] [C] |

[C] Something in her smile she [Cmaj7] knows
[C7] That I don't need no other [F] lover [F] [Fmaj7]
[D] Something in her [D7] style that [G] shows me

I [Am] don't want to lose her [Caug] now
You [C] know I believe and [D7] how

[A] You're asking me [C#m7] will me love [F#m] grow [A]
I don't [D] know, [G] I don't [A] know
[A] You stick a[C#m7]round now, it may [F#m] show [A]
I don't [D] know, [G] I don't [C] know

Instrumental Break
[C] Something in her smile she [Cmaj7] knows
[C7] That I don't need no other [F] lover [F] [Fmaj7]
[D] Something in her [D7] style that [G] shows me

I [Am] don't want to lose her [Caug] now
You [C] know I believe and [D7] how


[C] Something in the way she [Cmaj7] knows
[C7] And all I have to do is think [F] of her [F] [Fmaj7]
[D] Something in the [D7] things she [G] shows me

I [Am] don't want to lose her [Caug] now
You [C] know I believe and [D7] how

Outro:

[F]| / / / / |[Eb] / / [G] / / | [A] / / / / | / / / / |
[F]| / / / / |[Eb] / / [G] [C] |



Added or amended 1st July 2020
Reproduced soley for
educational purposes


Soprano/Concert/Tenor Ukulele Chords
right handed
C















Cmaj7















C7















F















Fmaj7















D















D7















G















Am















Caug















Eb















A















C#m7















F#m

















Download text